Pentatonic Scale is a 5 tone scale.

Pentatonic Minor Scale

Pentatonic Minor Formula 1b345b7

Pentatonic Minor Fretboard Patterns

|-1--|----|----|-b3-|----|----|----|----|----|----|----|----|----| 
|-5--|----|----|-b7-|----|----|----|----|----|----|----|----|----| 
|-b3-|----|-4--|----|----|----|----|----|----|----|----|----|----| 
|-b7-|----|-1--|----|----|----|----|----|----|----|----|----|----| 
|-4--|----|-5--|----|----|----|----|----|----|----|----|----|----| 
|-1--|----|----|-b3-|----|----|----|----|----|----|----|----|----| 
|----|----|----|-b3-|----|-4--|----|----|----|----|----|----|----| 
|----|----|----|-b7-|----|-1--|----|----|----|----|----|----|----| 
|----|----|-4--|----|-5--|----|----|----|----|----|----|----|----| 
|----|----|-1--|----|----|-b3-|----|----|----|----|----|----|----| 
|----|----|-5--|----|----|-b7-|----|----|----|----|----|----|----| 
|----|----|----|-b3-|----|-4--|----|----|----|----|----|----|----| 
|----|----|----|----|----|-4--|----|-5--|----|----|----|----|----| 
|----|----|----|----|----|-1--|----|----|-b3-|----|----|----|----| 
|----|----|----|----|-5--|----|----|-b7-|----|----|----|----|----| 
|----|----|----|----|----|-b3-|----|-4--|----|----|----|----|----| 
|----|----|----|----|----|-b7-|----|-1--|----|----|----|----|----| 
|----|----|----|----|----|-4--|----|-5--|----|----|----|----|----| 
|----|----|----|----|----|----|----|-5--|----|----|-b7-|----|----| 
|----|----|----|----|----|----|----|----|-b3-|----|-4--|----|----| 
|----|----|----|----|----|----|----|-b7-|----|-1--|----|----|----| 
|----|----|----|----|----|----|----|-4--|----|-5--|----|----|----| 
|----|----|----|----|----|----|----|-1--|----|----|-b3-|----|----| 
|----|----|----|----|----|----|----|-5--|----|----|-b7-|----|----| 
|----|----|----|----|----|----|----|----|----|----|-b7-|----|-1--| 
|----|----|----|----|----|----|----|----|----|----|-4--|----|-5--| 
|----|----|----|----|----|----|----|----|----|-1--|----|----|-b3-| 
|----|----|----|----|----|----|----|----|----|-5--|----|----|-b7-| 
|----|----|----|----|----|----|----|----|----|----|-b3-|----|-4--| 
|----|----|----|----|----|----|----|----|----|----|-b7-|----|-1--| 

Video

Blues Lesson by Nat Janoff

Intermediate level Blues guitar lesson using A Minor and A Major pentatonic scale.

                     A Minor Pentatonic (A C D E G) 
 
          Pattern 1             |           Pattern 2 
|-------------------------5--8--|------------------------------8--10-| 
|---------------------5--8------|-------------------------8--10------| 
|----------------5--7-----------|--------------------7--9------------| 
|-----------5--7----------------|--------------7--10-----------------| 
|------5--7---------------------|--------7--10-----------------------| 
|-5--8--------------------------|--8--10-----------------------------| 
                     A Major Pentonic (A B C# E F#) 
 
          Pattern 1             |           Pattern 2  
|-------------------------5--7--|------------------------------7--9--| 
|---------------------5--7------|-------------------------7--10------| 
|----------------4--6-----------|--------------------6--9------------| 
|-----------4--7----------------|--------------7--9------------------| 
|------4--7---------------------|--------7--9------------------------| 
|-5--7--------------------------|--7--9------------------------------| 

External links